ISO-10303-21;
HEADER;
FILE_DESCRIPTION (( 'STEP AP203' ),
    '1' );
FILE_NAME ('Q-SHPQWP-18-1064-M.STEP',
    '2020-12-22T09:47:20',
    ( '' ),
    ( '' ),
    'SwSTEP 2.0',
    'SolidWorks 2020',
    '' );
FILE_SCHEMA (( 'CONFIG_CONTROL_DESIGN' ));
ENDSEC;

DATA;
#1 = ORIENTED_EDGE ( 'NONE', *, *, #47, .F. ) ;
#2 =( NAMED_UNIT ( * ) SI_UNIT ( $, .STERADIAN. ) SOLID_ANGLE_UNIT ( ) );
#3 = ORIENTED_EDGE ( 'NONE', *, *, #310, .F. ) ;
#4 = CARTESIAN_POINT ( 'NONE',  ( 0.01500000000000106977, 1.102182119232617714E-15, -9.000000000000000000 ) ) ;
#5 = DIRECTION ( 'NONE',  ( 0.000000000000000000, 0.000000000000000000, 1.000000000000000000 ) ) ;
#6 = CIRCLE ( 'NONE', #297, 12.69999999999999929 ) ;
#7 = PLANE ( 'NONE',  #157 ) ;
#8 = EDGE_CURVE ( 'NONE', #32, #229, #214, .T. ) ;
#9 = EDGE_LOOP ( 'NONE', ( #245, #241, #77, #287 ) ) ;
#10 = FACE_OUTER_BOUND ( 'NONE', #127, .T. ) ;
#11 = CARTESIAN_POINT ( 'NONE',  ( 2.999999999999999112, 0.000000000000000000, 9.000000000000000000 ) ) ;
#12 = AXIS2_PLACEMENT_3D ( 'NONE', #327, #255, #300 ) ;
#13 = COORDINATED_UNIVERSAL_TIME_OFFSET ( 8, 0, .AHEAD. ) ;
#14 = FACE_OUTER_BOUND ( 'NONE', #158, .T. ) ;
#15 = FACE_OUTER_BOUND ( 'NONE', #166, .T. ) ;
#16 = CARTESIAN_POINT ( 'NONE',  ( -0.01500000000000047302, 1.102182119232617714E-15, -9.000000000000000000 ) ) ;
#17 = CC_DESIGN_DATE_AND_TIME_ASSIGNMENT ( #18, #305, ( #152 ) ) ;
#18 = DATE_AND_TIME ( #263, #148 ) ;
#19 = AXIS2_PLACEMENT_3D ( 'NONE', #168, #296, #61 ) ;
#20 = AXIS2_PLACEMENT_3D ( 'NONE', #322, #94, #280 ) ;
#21 = VERTEX_POINT ( 'NONE', #91 ) ;
#22 = VERTEX_POINT ( 'NONE', #4 ) ;
#23 = EDGE_CURVE ( 'NONE', #229, #154, #315, .T. ) ;
#24 = APPROVAL_PERSON_ORGANIZATION ( #146, #335, #109 ) ;
#25 = CARTESIAN_POINT ( 'NONE',  ( 0.01500000000000052680, 9.000000000000000000, 0.000000000000000000 ) ) ;
#26 = APPLICATION_CONTEXT ( 'configuration controlled 3d designs of mechanical parts and assemblies' ) ;
#27 = CARTESIAN_POINT ( 'NONE',  ( -1.614212418857619014, 0.000000000000000000, 0.000000000000000000 ) ) ;
#28 = EDGE_LOOP ( 'NONE', ( #284, #193 ) ) ;
#29 = DIRECTION ( 'NONE',  ( -1.000000000000000000, 0.000000000000000000, -0.000000000000000000 ) ) ;
#30 = VERTEX_POINT ( 'NONE', #52 ) ;
#31 = AXIS2_PLACEMENT_3D ( 'NONE', #249, #292, #141 ) ;
#32 = VERTEX_POINT ( 'NONE', #227 ) ;
#33 = CC_DESIGN_PERSON_AND_ORGANIZATION_ASSIGNMENT ( #206, #279, ( #152 ) ) ;
#34 = CARTESIAN_POINT ( 'NONE',  ( -3.000000000000000000, 1.102182119232617714E-15, -9.000000000000000000 ) ) ;
#35 = LINE ( 'NONE', #143, #93 ) ;
#36 = DATE_AND_TIME ( #150, #71 ) ;
#37 = CYLINDRICAL_SURFACE ( 'NONE', #256, 12.69999999999999929 ) ;
#38 = PERSON_AND_ORGANIZATION ( #104, #225 ) ;
#39 = CARTESIAN_POINT ( 'NONE',  ( 0.01500000000000106977, 0.000000000000000000, 0.000000000000000000 ) ) ;
#40 = SHAPE_DEFINITION_REPRESENTATION ( #75, #70 ) ;
#41 = CARTESIAN_POINT ( 'NONE',  ( -3.000000000000000000, 0.000000000000000000, 0.000000000000000000 ) ) ;
#42 = ADVANCED_FACE ( 'NONE', ( #267 ), #132, .F. ) ;
#43 = EDGE_LOOP ( 'NONE', ( #185, #268, #320, #56 ) ) ;
#44 = AXIS2_PLACEMENT_3D ( 'NONE', #145, #205, #211 ) ;
#45 = ADVANCED_FACE ( 'NONE', ( #90, #160 ), #59, .F. ) ;
#46 = ORIENTED_EDGE ( 'NONE', *, *, #23, .T. ) ;
#47 = EDGE_CURVE ( 'NONE', #229, #32, #140, .T. ) ;
#48 = CALENDAR_DATE ( 2020, 22, 12 ) ;
#49 = CC_DESIGN_PERSON_AND_ORGANIZATION_ASSIGNMENT ( #257, #172, ( #281 ) ) ;
#50 = AXIS2_PLACEMENT_3D ( 'NONE', #27, #170, #119 ) ;
#51 = EDGE_LOOP ( 'NONE', ( #142, #84 ) ) ;
#52 = CARTESIAN_POINT ( 'NONE',  ( -3.000000000000000000, 1.555301434917138433E-15, -12.69999999999999929 ) ) ;
#53 = CC_DESIGN_DATE_AND_TIME_ASSIGNMENT ( #36, #233, ( #217 ) ) ;
#54 = CIRCLE ( 'NONE', #44, 9.000000000000000000 ) ;
#55 = ORIENTED_EDGE ( 'NONE', *, *, #149, .T. ) ;
#56 = ORIENTED_EDGE ( 'NONE', *, *, #153, .T. ) ;
#57 = CARTESIAN_POINT ( 'NONE',  ( -1.614212418857619014, 0.000000000000000000, 9.000000000000000000 ) ) ;
#58 = DIRECTION ( 'NONE',  ( 0.000000000000000000, 0.000000000000000000, -1.000000000000000000 ) ) ;
#59 = PLANE ( 'NONE',  #323 ) ;
#60 = AXIS2_PLACEMENT_3D ( 'NONE', #82, #139, #266 ) ;
#61 = DIRECTION ( 'NONE',  ( 0.000000000000000000, 0.000000000000000000, 1.000000000000000000 ) ) ;
#62 = CYLINDRICAL_SURFACE ( 'NONE', #169, 9.000000000000000000 ) ;
#63 = PLANE ( 'NONE',  #12 ) ;
#64 = ADVANCED_FACE ( 'NONE', ( #171 ), #7, .F. ) ;
#65 = DATE_AND_TIME ( #48, #234 ) ;
#66 = DIRECTION ( 'NONE',  ( 0.000000000000000000, 0.000000000000000000, -1.000000000000000000 ) ) ;
#67 = APPROVAL_STATUS ( 'not_yet_approved' ) ;
#68 = CARTESIAN_POINT ( 'NONE',  ( -3.000000000000000000, 0.000000000000000000, 12.69999999999999929 ) ) ;
#69 = AXIS2_PLACEMENT_3D ( 'NONE', #41, #273, #330 ) ;
#70 = ADVANCED_BREP_SHAPE_REPRESENTATION ( 'Q-SHPQWP-18-1064-M', ( #98, #130 ), #218 ) ;
#71 = LOCAL_TIME ( 17, 47, 20.00000000000000000, #276 ) ;
#72 = APPROVAL_DATE_TIME ( #301, #299 ) ;
#73 = EDGE_CURVE ( 'NONE', #183, #261, #293, .T. ) ;
#74 = DIRECTION ( 'NONE',  ( -1.000000000000000000, -0.000000000000000000, -0.000000000000000000 ) ) ;
#75 = PRODUCT_DEFINITION_SHAPE ( 'NONE', 'NONE',  #217 ) ;
#76 = CC_DESIGN_SECURITY_CLASSIFICATION ( #152, ( #281 ) ) ;
#77 = ORIENTED_EDGE ( 'NONE', *, *, #162, .T. ) ;
#78 = VERTEX_POINT ( 'NONE', #115 ) ;
#79 = VECTOR ( 'NONE', #252, 1000.000000000000000 ) ;
#80 = APPROVAL_PERSON_ORGANIZATION ( #96, #299, #202 ) ;
#81 = EDGE_LOOP ( 'NONE', ( #314, #269, #212, #164 ) ) ;
#82 = CARTESIAN_POINT ( 'NONE',  ( 2.999999999999999112, 0.000000000000000000, 0.000000000000000000 ) ) ;
#83 = CARTESIAN_POINT ( 'NONE',  ( -1.614212418857619014, 0.000000000000000000, 0.000000000000000000 ) ) ;
#84 = ORIENTED_EDGE ( 'NONE', *, *, #8, .T. ) ;
#85 = ORIENTED_EDGE ( 'NONE', *, *, #201, .F. ) ;
#86 = EDGE_CURVE ( 'NONE', #32, #22, #316, .T. ) ;
#87 = DIRECTION ( 'NONE',  ( 0.000000000000000000, 0.000000000000000000, 1.000000000000000000 ) ) ;
#88 = EDGE_LOOP ( 'NONE', ( #290, #1, #46, #55 ) ) ;
#89 = DIRECTION ( 'NONE',  ( 1.000000000000000000, 0.000000000000000000, 0.000000000000000000 ) ) ;
#90 = FACE_OUTER_BOUND ( 'NONE', #106, .T. ) ;
#91 = CARTESIAN_POINT ( 'NONE',  ( 3.000000000000000000, 0.000000000000000000, 12.69999999999999929 ) ) ;
#92 = CARTESIAN_POINT ( 'NONE',  ( -3.000000000000000000, 0.000000000000000000, 9.000000000000000000 ) ) ;
#93 = VECTOR ( 'NONE', #231, 1000.000000000000000 ) ;
#94 = DIRECTION ( 'NONE',  ( -1.000000000000000000, -0.000000000000000000, -0.000000000000000000 ) ) ;
#95 = ADVANCED_FACE ( 'NONE', ( #307, #259 ), #235, .F. ) ;
#96 = PERSON_AND_ORGANIZATION ( #104, #225 ) ;
#97 = CARTESIAN_POINT ( 'NONE',  ( -1.614212418857619014, 0.000000000000000000, 9.000000000000000000 ) ) ;
#98 = MANIFOLD_SOLID_BREP ( 'Ðý×', #304 ) ;
#99 = APPROVAL_DATE_TIME ( #180, #335 ) ;
#100 = DIRECTION ( 'NONE',  ( 1.000000000000000000, 0.000000000000000000, 0.000000000000000000 ) ) ;
#101 = DIRECTION ( 'NONE',  ( -1.000000000000000000, -0.000000000000000000, -0.000000000000000000 ) ) ;
#102 = CIRCLE ( 'NONE', #69, 9.000000000000000000 ) ;
#103 = APPLICATION_PROTOCOL_DEFINITION ( 'international standard', 'config_control_design', 1994, #155 ) ;
#104 = PERSON ( 'UNSPECIFIED', 'UNSPECIFIED', 'UNSPECIFIED', ('UNSPECIFIED'), ('UNSPECIFIED'), ('UNSPECIFIED') ) ;
#105 = DIRECTION ( 'NONE',  ( -1.000000000000000000, -0.000000000000000000, -0.000000000000000000 ) ) ;
#106 = EDGE_LOOP ( 'NONE', ( #189, #186 ) ) ;
#107 = CIRCLE ( 'NONE', #178, 9.000000000000000000 ) ;
#108 = ADVANCED_FACE ( 'NONE', ( #10 ), #63, .F. ) ;
#109 = APPROVAL_ROLE ( '' ) ;
#110 = VECTOR ( 'NONE', #294, 1000.000000000000000 ) ;
#111 = EDGE_LOOP ( 'NONE', ( #187, #159 ) ) ;
#112 = ADVANCED_FACE ( 'NONE', ( #14 ), #37, .T. ) ;
#113 = DIRECTION ( 'NONE',  ( -1.000000000000000000, -0.000000000000000000, -0.000000000000000000 ) ) ;
#114 = ORIENTED_EDGE ( 'NONE', *, *, #201, .T. ) ;
#115 = CARTESIAN_POINT ( 'NONE',  ( 3.000000000000000000, 1.555301434917138433E-15, -12.69999999999999929 ) ) ;
#116 = DIRECTION ( 'NONE',  ( -1.000000000000000000, -0.000000000000000000, -0.000000000000000000 ) ) ;
#117 = ORIENTED_EDGE ( 'NONE', *, *, #308, .T. ) ;
#118 = ORIENTED_EDGE ( 'NONE', *, *, #131, .T. ) ;
#119 = DIRECTION ( 'NONE',  ( 0.000000000000000000, 0.000000000000000000, 1.000000000000000000 ) ) ;
#120 = PERSON_AND_ORGANIZATION_ROLE ( 'design_owner' ) ;
#121 = ADVANCED_FACE ( 'NONE', ( #15 ), #203, .T. ) ;
#122 = DIRECTION ( 'NONE',  ( 0.000000000000000000, 0.000000000000000000, -1.000000000000000000 ) ) ;
#123 = COORDINATED_UNIVERSAL_TIME_OFFSET ( 8, 0, .AHEAD. ) ;
#124 = DIRECTION ( 'NONE',  ( 0.000000000000000000, 0.000000000000000000, 1.000000000000000000 ) ) ;
#125 = EDGE_CURVE ( 'NONE', #22, #154, #54, .T. ) ;
#126 = PERSON_AND_ORGANIZATION ( #104, #225 ) ;
#127 = EDGE_LOOP ( 'NONE', ( #190, #332 ) ) ;
#128 = PRODUCT_RELATED_PRODUCT_CATEGORY ( 'detail', '', ( #176 ) ) ;
#129 = APPROVAL_STATUS ( 'not_yet_approved' ) ;
#130 = AXIS2_PLACEMENT_3D ( 'NONE', #165, #5, #89 ) ;
#131 = EDGE_CURVE ( 'NONE', #78, #21, #6, .T. ) ;
#132 = CYLINDRICAL_SURFACE ( 'NONE', #133, 9.000000000000000000 ) ;
#133 = AXIS2_PLACEMENT_3D ( 'NONE', #318, #222, #288 ) ;
#134 =( NAMED_UNIT ( * ) PLANE_ANGLE_UNIT ( ) SI_UNIT ( $, .RADIAN. ) );
#135 = DIRECTION ( 'NONE',  ( -1.000000000000000000, 0.000000000000000000, -0.000000000000000000 ) ) ;
#136 = DIRECTION ( 'NONE',  ( 0.000000000000000000, 0.000000000000000000, 1.000000000000000000 ) ) ;
#137 = VERTEX_POINT ( 'NONE', #68 ) ;
#138 = CYLINDRICAL_SURFACE ( 'NONE', #309, 9.000000000000000000 ) ;
#139 = DIRECTION ( 'NONE',  ( -1.000000000000000000, -0.000000000000000000, -0.000000000000000000 ) ) ;
#140 = CIRCLE ( 'NONE', #19, 9.000000000000000000 ) ;
#141 = DIRECTION ( 'NONE',  ( 0.000000000000000000, 0.000000000000000000, 1.000000000000000000 ) ) ;
#142 = ORIENTED_EDGE ( 'NONE', *, *, #47, .T. ) ;
#143 = CARTESIAN_POINT ( 'NONE',  ( -1.614212418857619014, 0.000000000000000000, 12.69999999999999929 ) ) ;
#144 = CC_DESIGN_PERSON_AND_ORGANIZATION_ASSIGNMENT ( #243, #120, ( #176 ) ) ;
#145 = CARTESIAN_POINT ( 'NONE',  ( 0.01500000000000106977, 0.000000000000000000, 0.000000000000000000 ) ) ;
#146 = PERSON_AND_ORGANIZATION ( #104, #225 ) ;
#147 = AXIS2_PLACEMENT_3D ( 'NONE', #275, #100, #66 ) ;
#148 = LOCAL_TIME ( 17, 47, 20.00000000000000000, #13 ) ;
#149 = EDGE_CURVE ( 'NONE', #154, #22, #199, .T. ) ;
#150 = CALENDAR_DATE ( 2020, 22, 12 ) ;
#151 = CARTESIAN_POINT ( 'NONE',  ( -0.01500000000000047302, 0.000000000000000000, 0.000000000000000000 ) ) ;
#152 = SECURITY_CLASSIFICATION ( '', '', #210 ) ;
#153 = EDGE_CURVE ( 'NONE', #312, #261, #102, .T. ) ;
#154 = VERTEX_POINT ( 'NONE', #208 ) ;
#155 = APPLICATION_CONTEXT ( 'configuration controlled 3d designs of mechanical parts and assemblies' ) ;
#156 = COORDINATED_UNIVERSAL_TIME_OFFSET ( 8, 0, .AHEAD. ) ;
#157 = AXIS2_PLACEMENT_3D ( 'NONE', #25, #135, #248 ) ;
#158 = EDGE_LOOP ( 'NONE', ( #262, #118, #219, #85 ) ) ;
#159 = ORIENTED_EDGE ( 'NONE', *, *, #125, .F. ) ;
#160 = FACE_BOUND ( 'NONE', #51, .T. ) ;
#161 = CARTESIAN_POINT ( 'NONE',  ( -1.614212418857619014, 1.555301434917138433E-15, -12.69999999999999929 ) ) ;
#162 = EDGE_CURVE ( 'NONE', #261, #312, #107, .T. ) ;
#163 = ORIENTED_EDGE ( 'NONE', *, *, #195, .F. ) ;
#164 = ORIENTED_EDGE ( 'NONE', *, *, #23, .F. ) ;
#165 = CARTESIAN_POINT ( 'NONE',  ( 0.000000000000000000, 0.000000000000000000, 0.000000000000000000 ) ) ;
#166 = EDGE_LOOP ( 'NONE', ( #247, #117, #3, #163 ) ) ;
#167 = FACE_OUTER_BOUND ( 'NONE', #43, .T. ) ;
#168 = CARTESIAN_POINT ( 'NONE',  ( 2.999999999999999112, 0.000000000000000000, 0.000000000000000000 ) ) ;
#169 = AXIS2_PLACEMENT_3D ( 'NONE', #295, #221, #87 ) ;
#170 = DIRECTION ( 'NONE',  ( -1.000000000000000000, -0.000000000000000000, -0.000000000000000000 ) ) ;
#171 = FACE_OUTER_BOUND ( 'NONE', #111, .T. ) ;
#172 = PERSON_AND_ORGANIZATION_ROLE ( 'design_supplier' ) ;
#173 = DIRECTION ( 'NONE',  ( -1.000000000000000000, -0.000000000000000000, -0.000000000000000000 ) ) ;
#174 = APPROVAL_DATE_TIME ( #65, #258 ) ;
#175 = PERSON_AND_ORGANIZATION_ROLE ( 'creator' ) ;
#176 = PRODUCT ( 'Q-SHPQWP-18-1064-M', 'Q-SHPQWP-18-1064-M', '', ( #191 ) ) ;
#177 = AXIS2_PLACEMENT_3D ( 'NONE', #319, #197, #58 ) ;
#178 = AXIS2_PLACEMENT_3D ( 'NONE', #274, #105, #181 ) ;
#179 = CARTESIAN_POINT ( 'NONE',  ( -1.614212418857619014, 0.000000000000000000, 0.000000000000000000 ) ) ;
#180 = DATE_AND_TIME ( #182, #285 ) ;
#181 = DIRECTION ( 'NONE',  ( 0.000000000000000000, 0.000000000000000000, 1.000000000000000000 ) ) ;
#182 = CALENDAR_DATE ( 2020, 22, 12 ) ;
#183 = VERTEX_POINT ( 'NONE', #16 ) ;
#184 = CIRCLE ( 'NONE', #188, 9.000000000000000000 ) ;
#185 = ORIENTED_EDGE ( 'NONE', *, *, #73, .F. ) ;
#186 = ORIENTED_EDGE ( 'NONE', *, *, #131, .F. ) ;
#187 = ORIENTED_EDGE ( 'NONE', *, *, #149, .F. ) ;
#188 = AXIS2_PLACEMENT_3D ( 'NONE', #151, #260, #122 ) ;
#189 = ORIENTED_EDGE ( 'NONE', *, *, #328, .F. ) ;
#190 = ORIENTED_EDGE ( 'NONE', *, *, #236, .F. ) ;
#191 = MECHANICAL_CONTEXT ( 'NONE', #26, 'mechanical' ) ;
#192 = EDGE_LOOP ( 'NONE', ( #286, #114 ) ) ;
#193 = ORIENTED_EDGE ( 'NONE', *, *, #162, .F. ) ;
#194 = CIRCLE ( 'NONE', #31, 12.69999999999999929 ) ;
#195 = EDGE_CURVE ( 'NONE', #21, #137, #35, .T. ) ;
#196 = CARTESIAN_POINT ( 'NONE',  ( -1.614212418857619014, 1.102182119232617714E-15, -9.000000000000000000 ) ) ;
#197 = DIRECTION ( 'NONE',  ( 1.000000000000000000, 0.000000000000000000, 0.000000000000000000 ) ) ;
#198 = DIRECTION ( 'NONE',  ( -0.000000000000000000, 0.000000000000000000, 1.000000000000000000 ) ) ;
#199 = CIRCLE ( 'NONE', #270, 9.000000000000000000 ) ;
#200 = CARTESIAN_POINT ( 'NONE',  ( 3.000000000000000000, 0.000000000000000000, 0.000000000000000000 ) ) ;
#201 = EDGE_CURVE ( 'NONE', #30, #137, #207, .T. ) ;
#202 = APPROVAL_ROLE ( '' ) ;
#203 = CYLINDRICAL_SURFACE ( 'NONE', #244, 12.69999999999999929 ) ;
#204 = APPROVAL_ROLE ( '' ) ;
#205 = DIRECTION ( 'NONE',  ( -1.000000000000000000, -0.000000000000000000, -0.000000000000000000 ) ) ;
#206 = PERSON_AND_ORGANIZATION ( #104, #225 ) ;
#207 = CIRCLE ( 'NONE', #20, 12.69999999999999929 ) ;
#208 = CARTESIAN_POINT ( 'NONE',  ( 0.01500000000000106977, 0.000000000000000000, 9.000000000000000000 ) ) ;
#209 = DESIGN_CONTEXT ( 'detailed design', #155, 'design' ) ;
#210 = SECURITY_CLASSIFICATION_LEVEL ( 'unclassified' ) ;
#211 = DIRECTION ( 'NONE',  ( 0.000000000000000000, 0.000000000000000000, 1.000000000000000000 ) ) ;
#212 = ORIENTED_EDGE ( 'NONE', *, *, #125, .T. ) ;
#213 = CC_DESIGN_PERSON_AND_ORGANIZATION_ASSIGNMENT ( #38, #175, ( #217 ) ) ;
#214 = CIRCLE ( 'NONE', #60, 9.000000000000000000 ) ;
#215 = UNCERTAINTY_MEASURE_WITH_UNIT (LENGTH_MEASURE( 1.000000000000000082E-05 ), #265, 'distance_accuracy_value', 'NONE');
#216 = PERSON_AND_ORGANIZATION ( #104, #225 ) ;
#217 = PRODUCT_DEFINITION ( 'UNKNOWN', '', #281, #209 ) ;
#218 =( GEOMETRIC_REPRESENTATION_CONTEXT ( 3 ) GLOBAL_UNCERTAINTY_ASSIGNED_CONTEXT ( ( #215 ) ) GLOBAL_UNIT_ASSIGNED_CONTEXT ( ( #265, #134, #2 ) ) REPRESENTATION_CONTEXT ( 'NONE', 'WORKASPACE' ) );
#219 = ORIENTED_EDGE ( 'NONE', *, *, #195, .T. ) ;
#220 = CARTESIAN_POINT ( 'NONE',  ( 2.999999999999999556, 12.69999999999999929, 0.000000000000000000 ) ) ;
#221 = DIRECTION ( 'NONE',  ( -1.000000000000000000, -0.000000000000000000, -0.000000000000000000 ) ) ;
#222 = DIRECTION ( 'NONE',  ( -1.000000000000000000, -0.000000000000000000, -0.000000000000000000 ) ) ;
#223 = VECTOR ( 'NONE', #116, 1000.000000000000000 ) ;
#224 = LOCAL_TIME ( 17, 47, 20.00000000000000000, #123 ) ;
#225 = ORGANIZATION ( 'UNSPECIFIED', 'UNSPECIFIED', '' ) ;
#226 = DIRECTION ( 'NONE',  ( 0.000000000000000000, 0.000000000000000000, 1.000000000000000000 ) ) ;
#227 = CARTESIAN_POINT ( 'NONE',  ( 2.999999999999999112, 1.102182119232617714E-15, -9.000000000000000000 ) ) ;
#228 = DIRECTION ( 'NONE',  ( -1.000000000000000000, -0.000000000000000000, -0.000000000000000000 ) ) ;
#229 = VERTEX_POINT ( 'NONE', #11 ) ;
#230 = LINE ( 'NONE', #161, #253 ) ;
#231 = DIRECTION ( 'NONE',  ( -1.000000000000000000, -0.000000000000000000, -0.000000000000000000 ) ) ;
#232 = VECTOR ( 'NONE', #228, 1000.000000000000000 ) ;
#233 = DATE_TIME_ROLE ( 'creation_date' ) ;
#234 = LOCAL_TIME ( 17, 47, 20.00000000000000000, #238 ) ;
#235 = PLANE ( 'NONE',  #147 ) ;
#236 = EDGE_CURVE ( 'NONE', #311, #183, #184, .T. ) ;
#237 = DIRECTION ( 'NONE',  ( 0.000000000000000000, 0.000000000000000000, 1.000000000000000000 ) ) ;
#238 = COORDINATED_UNIVERSAL_TIME_OFFSET ( 8, 0, .AHEAD. ) ;
#239 = DIRECTION ( 'NONE',  ( 0.000000000000000000, 0.000000000000000000, 1.000000000000000000 ) ) ;
#240 = AXIS2_PLACEMENT_3D ( 'NONE', #200, #298, #226 ) ;
#241 = ORIENTED_EDGE ( 'NONE', *, *, #73, .T. ) ;
#242 = CIRCLE ( 'NONE', #240, 12.69999999999999929 ) ;
#243 = PERSON_AND_ORGANIZATION ( #104, #225 ) ;
#244 = AXIS2_PLACEMENT_3D ( 'NONE', #179, #331, #237 ) ;
#245 = ORIENTED_EDGE ( 'NONE', *, *, #236, .T. ) ;
#246 = CC_DESIGN_APPROVAL ( #258, ( #281 ) ) ;
#247 = ORIENTED_EDGE ( 'NONE', *, *, #328, .T. ) ;
#248 = DIRECTION ( 'NONE',  ( -0.000000000000000000, 0.000000000000000000, 1.000000000000000000 ) ) ;
#249 = CARTESIAN_POINT ( 'NONE',  ( -3.000000000000000000, 0.000000000000000000, 0.000000000000000000 ) ) ;
#250 = CARTESIAN_POINT ( 'NONE',  ( -1.614212418857619014, 1.102182119232617714E-15, -9.000000000000000000 ) ) ;
#251 = EDGE_CURVE ( 'NONE', #311, #312, #325, .T. ) ;
#252 = DIRECTION ( 'NONE',  ( -1.000000000000000000, -0.000000000000000000, -0.000000000000000000 ) ) ;
#253 = VECTOR ( 'NONE', #113, 1000.000000000000000 ) ;
#254 = CYLINDRICAL_SURFACE ( 'NONE', #50, 9.000000000000000000 ) ;
#255 = DIRECTION ( 'NONE',  ( 1.000000000000000000, 0.000000000000000000, 0.000000000000000000 ) ) ;
#256 = AXIS2_PLACEMENT_3D ( 'NONE', #306, #74, #124 ) ;
#257 = PERSON_AND_ORGANIZATION ( #104, #225 ) ;
#258 = APPROVAL ( #324, 'UNSPECIFIED' ) ;
#259 = FACE_OUTER_BOUND ( 'NONE', #192, .T. ) ;
#260 = DIRECTION ( 'NONE',  ( 1.000000000000000000, 0.000000000000000000, 0.000000000000000000 ) ) ;
#261 = VERTEX_POINT ( 'NONE', #34 ) ;
#262 = ORIENTED_EDGE ( 'NONE', *, *, #308, .F. ) ;
#263 = CALENDAR_DATE ( 2020, 22, 12 ) ;
#264 = CC_DESIGN_APPROVAL ( #335, ( #217 ) ) ;
#265 =( LENGTH_UNIT ( ) NAMED_UNIT ( * ) SI_UNIT ( .MILLI., .METRE. ) );
#266 = DIRECTION ( 'NONE',  ( 0.000000000000000000, 0.000000000000000000, 1.000000000000000000 ) ) ;
#267 = FACE_OUTER_BOUND ( 'NONE', #81, .T. ) ;
#268 = ORIENTED_EDGE ( 'NONE', *, *, #302, .T. ) ;
#269 = ORIENTED_EDGE ( 'NONE', *, *, #86, .T. ) ;
#270 = AXIS2_PLACEMENT_3D ( 'NONE', #39, #101, #239 ) ;
#271 = CC_DESIGN_APPROVAL ( #299, ( #152 ) ) ;
#272 = FACE_OUTER_BOUND ( 'NONE', #88, .T. ) ;
#273 = DIRECTION ( 'NONE',  ( -1.000000000000000000, -0.000000000000000000, -0.000000000000000000 ) ) ;
#274 = CARTESIAN_POINT ( 'NONE',  ( -3.000000000000000000, 0.000000000000000000, 0.000000000000000000 ) ) ;
#275 = CARTESIAN_POINT ( 'NONE',  ( -3.000000000000000000, 9.000000000000000000, 0.000000000000000000 ) ) ;
#276 = COORDINATED_UNIVERSAL_TIME_OFFSET ( 8, 0, .AHEAD. ) ;
#277 = CARTESIAN_POINT ( 'NONE',  ( 3.000000000000000000, 0.000000000000000000, 0.000000000000000000 ) ) ;
#278 = ADVANCED_FACE ( 'NONE', ( #167 ), #138, .F. ) ;
#279 = PERSON_AND_ORGANIZATION_ROLE ( 'classification_officer' ) ;
#280 = DIRECTION ( 'NONE',  ( 0.000000000000000000, 0.000000000000000000, 1.000000000000000000 ) ) ;
#281 = PRODUCT_DEFINITION_FORMATION_WITH_SPECIFIED_SOURCE ( 'ANY', '', #176, .NOT_KNOWN. ) ;
#282 = ADVANCED_FACE ( 'NONE', ( #272 ), #254, .F. ) ;
#283 = CC_DESIGN_PERSON_AND_ORGANIZATION_ASSIGNMENT ( #126, #329, ( #281 ) ) ;
#284 = ORIENTED_EDGE ( 'NONE', *, *, #153, .F. ) ;
#285 = LOCAL_TIME ( 17, 47, 20.00000000000000000, #156 ) ;
#286 = ORIENTED_EDGE ( 'NONE', *, *, #310, .T. ) ;
#287 = ORIENTED_EDGE ( 'NONE', *, *, #251, .F. ) ;
#288 = DIRECTION ( 'NONE',  ( 0.000000000000000000, 0.000000000000000000, 1.000000000000000000 ) ) ;
#289 = DIRECTION ( 'NONE',  ( -1.000000000000000000, -0.000000000000000000, -0.000000000000000000 ) ) ;
#290 = ORIENTED_EDGE ( 'NONE', *, *, #86, .F. ) ;
#291 = APPROVAL_PERSON_ORGANIZATION ( #216, #258, #204 ) ;
#292 = DIRECTION ( 'NONE',  ( -1.000000000000000000, -0.000000000000000000, -0.000000000000000000 ) ) ;
#293 = LINE ( 'NONE', #196, #110 ) ;
#294 = DIRECTION ( 'NONE',  ( -1.000000000000000000, -0.000000000000000000, -0.000000000000000000 ) ) ;
#295 = CARTESIAN_POINT ( 'NONE',  ( -1.614212418857619014, 0.000000000000000000, 0.000000000000000000 ) ) ;
#296 = DIRECTION ( 'NONE',  ( -1.000000000000000000, -0.000000000000000000, -0.000000000000000000 ) ) ;
#297 = AXIS2_PLACEMENT_3D ( 'NONE', #277, #173, #303 ) ;
#298 = DIRECTION ( 'NONE',  ( -1.000000000000000000, -0.000000000000000000, -0.000000000000000000 ) ) ;
#299 = APPROVAL ( #129, 'UNSPECIFIED' ) ;
#300 = DIRECTION ( 'NONE',  ( 0.000000000000000000, 0.000000000000000000, -1.000000000000000000 ) ) ;
#301 = DATE_AND_TIME ( #326, #224 ) ;
#302 = EDGE_CURVE ( 'NONE', #183, #311, #334, .T. ) ;
#303 = DIRECTION ( 'NONE',  ( 0.000000000000000000, 0.000000000000000000, 1.000000000000000000 ) ) ;
#304 = CLOSED_SHELL ( 'NONE', ( #121, #333, #42, #64, #282, #278, #95, #112, #45, #108 ) ) ;
#305 = DATE_TIME_ROLE ( 'classification_date' ) ;
#306 = CARTESIAN_POINT ( 'NONE',  ( -1.614212418857619014, 0.000000000000000000, 0.000000000000000000 ) ) ;
#307 = FACE_BOUND ( 'NONE', #28, .T. ) ;
#308 = EDGE_CURVE ( 'NONE', #78, #30, #230, .T. ) ;
#309 = AXIS2_PLACEMENT_3D ( 'NONE', #83, #289, #136 ) ;
#310 = EDGE_CURVE ( 'NONE', #137, #30, #194, .T. ) ;
#311 = VERTEX_POINT ( 'NONE', #321 ) ;
#312 = VERTEX_POINT ( 'NONE', #92 ) ;
#313 = APPLICATION_PROTOCOL_DEFINITION ( 'international standard', 'config_control_design', 1994, #26 ) ;
#314 = ORIENTED_EDGE ( 'NONE', *, *, #8, .F. ) ;
#315 = LINE ( 'NONE', #57, #79 ) ;
#316 = LINE ( 'NONE', #250, #223 ) ;
#317 = FACE_OUTER_BOUND ( 'NONE', #9, .T. ) ;
#318 = CARTESIAN_POINT ( 'NONE',  ( -1.614212418857619014, 0.000000000000000000, 0.000000000000000000 ) ) ;
#319 = CARTESIAN_POINT ( 'NONE',  ( -0.01500000000000047302, 0.000000000000000000, 0.000000000000000000 ) ) ;
#320 = ORIENTED_EDGE ( 'NONE', *, *, #251, .T. ) ;
#321 = CARTESIAN_POINT ( 'NONE',  ( -0.01500000000000047302, 0.000000000000000000, 9.000000000000000000 ) ) ;
#322 = CARTESIAN_POINT ( 'NONE',  ( -3.000000000000000000, 0.000000000000000000, 0.000000000000000000 ) ) ;
#323 = AXIS2_PLACEMENT_3D ( 'NONE', #220, #29, #198 ) ;
#324 = APPROVAL_STATUS ( 'not_yet_approved' ) ;
#325 = LINE ( 'NONE', #97, #232 ) ;
#326 = CALENDAR_DATE ( 2020, 22, 12 ) ;
#327 = CARTESIAN_POINT ( 'NONE',  ( -0.01500000000000052680, 9.000000000000000000, 0.000000000000000000 ) ) ;
#328 = EDGE_CURVE ( 'NONE', #21, #78, #242, .T. ) ;
#329 = PERSON_AND_ORGANIZATION_ROLE ( 'creator' ) ;
#330 = DIRECTION ( 'NONE',  ( 0.000000000000000000, 0.000000000000000000, 1.000000000000000000 ) ) ;
#331 = DIRECTION ( 'NONE',  ( -1.000000000000000000, -0.000000000000000000, -0.000000000000000000 ) ) ;
#332 = ORIENTED_EDGE ( 'NONE', *, *, #302, .F. ) ;
#333 = ADVANCED_FACE ( 'NONE', ( #317 ), #62, .F. ) ;
#334 = CIRCLE ( 'NONE', #177, 9.000000000000000000 ) ;
#335 = APPROVAL ( #67, 'UNSPECIFIED' ) ;
ENDSEC;
END-ISO-10303-21;
